  0
SECTION
  2
HEADER
  9
$ACADVER
  1
AC1015
  9
$ACADMAINTVER
 70
     6
  9
$DWGCODEPAGE
  3
ANSI_1254
  9
$INSBASE
 10
0.0
 20
0.0
 30
0.0
  9
$EXTMIN
 10
0.0
 20
0.0
 30
0.0
  9
$EXTMAX
 10
279.4
 20
215.9
 30
0.0
  9
$LIMMIN
 10
0.0
 20
0.0
  9
$LIMMAX
 10
279.4
 20
215.9
  9
$ORTHOMODE
 70
     0
  9
$REGENMODE
 70
     1
  9
$FILLMODE
 70
     1
  9
$QTEXTMODE
 70
     0
  9
$MIRRTEXT
 70
     1
  9
$LTSCALE
 40
1.0
  9
$ATTMODE
 70
     1
  9
$TEXTSIZE
 40
3.5
  9
$TRACEWID
 40
1.0
  9
$TEXTSTYLE
  7
Standard
  9
$CLAYER
  8
0
  9
$CELTYPE
  6
ByLayer
  9
$CECOLOR
 62
   256
  9
$CELTSCALE
 40
1.0
  9
$DISPSILH
 70
     0
  9
$DIMSCALE
 40
1.0
  9
$DIMASZ
 40
3.5
  9
$DIMEXO
 40
1.0
  9
$DIMDLI
 40
3.75
  9
$DIMRND
 40
0.0
  9
$DIMDLE
 40
0.0
  9
$DIMEXE
 40
1.0
  9
$DIMTP
 40
0.0
  9
$DIMTM
 40
0.0
  9
$DIMTXT
 40
3.5
  9
$DIMCEN
 40
2.5
  9
$DIMTSZ
 40
0.0
  9
$DIMTOL
 70
     0
  9
$DIMLIM
 70
     0
  9
$DIMTIH
 70
     1
  9
$DIMTOH
 70
     1
  9
$DIMSE1
 70
     0
  9
$DIMSE2
 70
     0
  9
$DIMTAD
 70
     1
  9
$DIMZIN
 70
     0
  9
$DIMBLK
  1

  9
$DIMASO
 70
     1
  9
$DIMSHO
 70
     1
  9
$DIMPOST
  1

  9
$DIMAPOST
  1

  9
$DIMALT
 70
     0
  9
$DIMALTD
 70
     3
  9
$DIMALTF
 40
0.0393700787
  9
$DIMLFAC
 40
1.0
  9
$DIMTOFL
 70
     1
  9
$DIMTVP
 40
0.0
  9
$DIMTIX
 70
     0
  9
$DIMSOXD
 70
     0
  9
$DIMSAH
 70
     0
  9
$DIMBLK1
  1

  9
$DIMBLK2
  1

  9
$DIMSTYLE
  2
ISO-25
  9
$DIMCLRD
 70
     0
  9
$DIMCLRE
 70
     0
  9
$DIMCLRT
 70
     0
  9
$DIMTFAC
 40
1.0
  9
$DIMGAP
 40
1.524
  9
$DIMJUST
 70
     0
  9
$DIMSD1
 70
     0
  9
$DIMSD2
 70
     0
  9
$DIMTOLJ
 70
     0
  9
$DIMTZIN
 70
     0
  9
$DIMALTZ
 70
     0
  9
$DIMALTTZ
 70
     0
  9
$DIMUPT
 70
     0
  9
$DIMDEC
 70
     2
  9
$DIMTDEC
 70
     2
  9
$DIMALTU
 70
     2
  9
$DIMALTTD
 70
     3
  9
$DIMTXSTY
  7
Standard
  9
$DIMAUNIT
 70
     0
  9
$DIMADEC
 70
     2
  9
$DIMALTRND
 40
0.0
  9
$DIMAZIN
 70
     0
  9
$DIMDSEP
 70
    44
  9
$DIMATFIT
 70
     3
  9
$DIMFRAC
 70
     0
  9
$DIMLDRBLK
  1

  9
$DIMLUNIT
 70
     2
  9
$DIMLWD
 70
    -2
  9
$DIMLWE
 70
    -2
  9
$DIMTMOVE
 70
     0
  9
$LUNITS
 70
     2
  9
$LUPREC
 70
     2
  9
$SKETCHINC
 40
1.0
  9
$FILLETRAD
 40
10.0
  9
$AUNITS
 70
     0
  9
$AUPREC
 70
     2
  9
$MENU
  1
.
  9
$ELEVATION
 40
0.0
  9
$PELEVATION
 40
0.0
  9
$THICKNESS
 40
0.0
  9
$LIMCHECK
 70
     0
  9
$CHAMFERA
 40
0.0
  9
$CHAMFERB
 40
0.0
  9
$CHAMFERC
 40
0.0
  9
$CHAMFERD
 40
0.0
  9
$SKPOLY
 70
     0
  9
$TDCREATE
 40
2459935.700583576
  9
$TDUCREATE
 40
2459935.575583576
  9
$TDUPDATE
 40
2459935.700583762
  9
$TDUUPDATE
 40
2459935.575583762
  9
$TDINDWG
 40
0.0000000116
  9
$TDUSRTIMER
 40
0.0000000116
  9
$USRTIMER
 70
     1
  9
$ANGBASE
 50
0.0
  9
$ANGDIR
 70
     0
  9
$PDMODE
 70
     0
  9
$PDSIZE
 40
-1.0
  9
$PLINEWID
 40
0.0
  9
$SPLFRAME
 70
     0
  9
$SPLINETYPE
 70
     6
  9
$SPLINESEGS
 70
     8
  9
$HANDSEED
  5
D2
  9
$SURFTAB1
 70
     6
  9
$SURFTAB2
 70
     6
  9
$SURFTYPE
 70
     6
  9
$SURFU
 70
     6
  9
$SURFV
 70
     6
  9
$UCSBASE
  2

  9
$UCSNAME
  2

  9
$UCSORG
 10
0.0
 20
0.0
 30
0.0
  9
$UCSXDIR
 10
1.0
 20
0.0
 30
0.0
  9
$UCSYDIR
 10
0.0
 20
1.0
 30
0.0
  9
$UCSORTHOREF
  2

  9
$UCSORTHOVIEW
 70
     0
  9
$UCSORGTOP
 10
0.0
 20
0.0
 30
0.0
  9
$UCSORGBOTTOM
 10
0.0
 20
0.0
 30
0.0
  9
$UCSORGLEFT
 10
0.0
 20
0.0
 30
0.0
  9
$UCSORGRIGHT
 10
0.0
 20
0.0
 30
0.0
  9
$UCSORGFRONT
 10
0.0
 20
0.0
 30
0.0
  9
$UCSORGBACK
 10
0.0
 20
0.0
 30
0.0
  9
$PUCSBASE
  2

  9
$PUCSNAME
  2

  9
$PUCSORG
 10
0.0
 20
0.0
 30
0.0
  9
$PUCSXDIR
 10
1.0
 20
0.0
 30
0.0
  9
$PUCSYDIR
 10
0.0
 20
1.0
 30
0.0
  9
$PUCSORTHOREF
  2

  9
$PUCSORTHOVIEW
 70
     0
  9
$PUCSORGTOP
 10
0.0
 20
0.0
 30
0.0
  9
$PUCSORGBOTTOM
 10
0.0
 20
0.0
 30
0.0
  9
$PUCSORGLEFT
 10
0.0
 20
0.0
 30
0.0
  9
$PUCSORGRIGHT
 10
0.0
 20
0.0
 30
0.0
  9
$PUCSORGFRONT
 10
0.0
 20
0.0
 30
0.0
  9
$PUCSORGBACK
 10
0.0
 20
0.0
 30
0.0
  9
$USERI1
 70
     0
  9
$USERI2
 70
     0
  9
$USERI3
 70
     0
  9
$USERI4
 70
     0
  9
$USERI5
 70
     0
  9
$USERR1
 40
0.0
  9
$USERR2
 40
0.0
  9
$USERR3
 40
0.0
  9
$USERR4
 40
0.0
  9
$USERR5
 40
0.0
  9
$WORLDVIEW
 70
     1
  9
$SHADEDGE
 70
     3
  9
$SHADEDIF
 70
    70
  9
$TILEMODE
 70
     1
  9
$MAXACTVP
 70
    64
  9
$PINSBASE
 10
0.0
 20
0.0
 30
0.0
  9
$PLIMCHECK
 70
     0
  9
$PEXTMIN
 10
1.0000000000E+20
 20
1.0000000000E+20
 30
1.0000000000E+20
  9
$PEXTMAX
 10
-1.0000000000E+20
 20
-1.0000000000E+20
 30
-1.0000000000E+20
  9
$PLIMMIN
 10
0.0
 20
0.0
  9
$PLIMMAX
 10
420.0
 20
297.0
  9
$UNITMODE
 70
     0
  9
$VISRETAIN
 70
     1
  9
$PLINEGEN
 70
     0
  9
$PSLTSCALE
 70
     1
  9
$TREEDEPTH
 70
  3020
  9
$CMLSTYLE
  2
Standard
  9
$CMLJUST
 70
     0
  9
$CMLSCALE
 40
20.0
  9
$PROXYGRAPHICS
 70
     1
  9
$MEASUREMENT
 70
     1
  9
$CELWEIGHT
370
    -1
  9
$ENDCAPS
280
     0
  9
$JOINSTYLE
280
     0
  9
$LWDISPLAY
290
     1
  9
$INSUNITS
 70
     4
  9
$HYPERLINKBASE
  1

  9
$STYLESHEET
  1

  9
$XEDIT
290
     1
  9
$CEPSNTYPE
380
     0
  9
$PSTYLEMODE
290
     1
  9
$FINGERPRINTGUID
  2
{a274d1d3-0fde-4b2f-ba28-d01294d3e18b}
  9
$VERSIONGUID
  2
{FAEB1C32-E019-11D5-929B-00C0DF256EC4}
  9
$EXTNAMES
290
     1
  9
$PSVPSCALE
 40
0.0
  9
$OLESTARTUP
290
     0
  0
ENDSEC
  0
SECTION
  2
CLASSES
  0
CLASS
  1
ACDBDICTIONARYWDFLT
  2
AcDbDictionaryWithDefault
  3
ObjectDBX Classes
 90
        0
280
     0
281
     0
  0
CLASS
  1
VISUALSTYLE
  2
AcDbVisualStyle
  3
ObjectDBX Classes
 90
     4095
280
     0
281
     0
  0
CLASS
  1
MATERIAL
  2
AcDbMaterial
  3
ObjectDBX Classes
 90
     1153
280
     0
281
     0
  0
CLASS
  1
SCALE
  2
AcDbScale
  3
ObjectDBX Classes
 90
     1153
280
     0
281
     0
  0
CLASS
  1
TABLESTYLE
  2
AcDbTableStyle
  3
ObjectDBX Classes
 90
     4095
280
     0
281
     0
  0
CLASS
  1
MLEADERSTYLE
  2
AcDbMLeaderStyle
  3
ACDB_MLEADERSTYLE_CLASS
 90
     4095
280
     0
281
     0
  0
CLASS
  1
SUN
  2
AcDbSun
  3
SCENEOE
 90
     1153
280
     0
281
     0
  0
CLASS
  1
ACDBPLACEHOLDER
  2
AcDbPlaceHolder
  3
ObjectDBX Classes
 90
        0
280
     0
281
     0
  0
CLASS
  1
LAYOUT
  2
AcDbLayout
  3
ObjectDBX Classes
 90
        0
280
     0
281
     0
  0
ENDSEC
  0
SECTION
  2
TABLES
  0
TABLE
  2
VPORT
  5
8
330
0
100
AcDbSymbolTable
 70
     1
  0
VPORT
  5
29
330
8
100
AcDbSymbolTableRecord
100
AcDbViewportTableRecord
  2
*Active
 70
     0
 10
0.0
 20
0.0
 11
1.0
 21
1.0
 12
139.7
 22
107.95
 13
0.0
 23
0.0
 14
10.0
 24
10.0
 15
10.0
 25
10.0
 16
0.0
 26
0.0
 36
1.0
 17
0.0
 27
0.0
 37
0.0
 40
215.9
 41
1.2941176471
 42
50.0
 43
0.0
 44
0.0
 50
0.0
 51
0.0
 71
     0
 72
  2000
 73
     1
 74
     3
 75
     0
 76
     0
 77
     0
 78
     0
281
     0
 65
     1
110
0.0
120
0.0
130
0.0
111
1.0
121
0.0
131
0.0
112
0.0
122
1.0
132
0.0
 79
     0
146
0.0
  0
ENDTAB
  0
TABLE
  2
LTYPE
  5
5
330
0
100
AcDbSymbolTable
 70
     6
  0
LTYPE
  5
14
330
5
100
AcDbSymbolTableRecord
100
AcDbLinetypeTableRecord
  2
ByBlock
 70
     0
  3

 72
    65
 73
     0
 40
0.0
  0
LTYPE
  5
15
330
5
100
AcDbSymbolTableRecord
100
AcDbLinetypeTableRecord
  2
ByLayer
 70
     0
  3

 72
    65
 73
     0
 40
0.0
  0
LTYPE
  5
16
330
5
100
AcDbSymbolTableRecord
100
AcDbLinetypeTableRecord
  2
Continuous
 70
     0
  3
Solid line
 72
    65
 73
     0
 40
0.0
  0
LTYPE
  5
6E
330
5
100
AcDbSymbolTableRecord
100
AcDbLinetypeTableRecord
  2
HIDDEN
 70
     0
  3
Hidden __ __ __ __ __ __ __ __ __ __ __ __ __ __
 72
    65
 73
     2
 40
1.905
 49
1.27
 74
     0
 49
-0.635
 74
     0
  0
LTYPE
  5
6F
330
5
100
AcDbSymbolTableRecord
100
AcDbLinetypeTableRecord
  2
PHANTOM
 70
     0
  3
Phantom ______  __  __  ______  __  __  ______
 72
    65
 73
     6
 40
12.7
 49
6.35
 74
     0
 49
-1.27
 74
     0
 49
1.27
 74
     0
 49
-1.27
 74
     0
 49
1.27
 74
     0
 49
-1.27
 74
     0
  0
LTYPE
  5
70
330
5
100
AcDbSymbolTableRecord
100
AcDbLinetypeTableRecord
  2
CENTER
 70
     0
  3
Center ____ _ ____ _ ____ _ ____ _ ____ _ ____
 72
    65
 73
     4
 40
10.16
 49
6.35
 74
     0
 49
-1.27
 74
     0
 49
1.27
 74
     0
 49
-1.27
 74
     0
  0
LTYPE
  5
71
330
5
100
AcDbSymbolTableRecord
100
AcDbLinetypeTableRecord
  2
CENTERX2
 70
     0
  3
Center (2x) ________  __  ________  __  _____
 72
    65
 73
     4
 40
20.32
 49
12.7
 74
     0
 49
-2.54
 74
     0
 49
2.54
 74
     0
 49
-2.54
 74
     0
  0
LTYPE
  5
72
330
5
100
AcDbSymbolTableRecord
100
AcDbLinetypeTableRecord
  2
DOT2
 70
     0
  3
Dot (.5x) ........................................
 72
    65
 73
     2
 40
0.635
 49
0.0
 74
     0
 49
-0.635
 74
     0
  0
ENDTAB
  0
TABLE
  2
LAYER
  5
2
330
0
100
AcDbSymbolTable
 70
    17
  0
LAYER
  5
10
330
2
100
AcDbSymbolTableRecord
100
AcDbLayerTableRecord
  2
0
 70
     0
 62
     7
  6
Continuous
370
    -3
390
F
  0
LAYER
  5
73
330
2
100
AcDbSymbolTableRecord
100
AcDbLayerTableRecord
  2
FORMAT
 70
     0
 62
     7
  6
Continuous
370
    -3
390
F
  0
LAYER
  5
74
330
2
100
AcDbSymbolTableRecord
100
AcDbLayerTableRecord
  2
YARDIMCI_GEOMETRI
 70
     0
 62
    -6
  6
Continuous
290
     0
370
    -3
390
F
  0
LAYER
  5
75
330
2
100
AcDbSymbolTableRecord
100
AcDbLayerTableRecord
  2
SAYFA_CERCEVESI
 70
     0
 62
     7
  6
Continuous
370
    25
390
F
  0
LAYER
  5
76
330
2
100
AcDbSymbolTableRecord
100
AcDbLayerTableRecord
  2
ANTET
 70
     0
 62
     7
  6
Continuous
370
    -3
390
F
  0
LAYER
  5
77
330
2
100
AcDbSymbolTableRecord
100
AcDbLayerTableRecord
  2
OLCU
 70
     0
 62
   150
  6
Continuous
370
    -3
390
F
  0
LAYER
  5
78
330
2
100
AcDbSymbolTableRecord
100
AcDbLayerTableRecord
  2
METIN
 70
     0
 62
    96
  6
Continuous
370
    -3
390
F
  0
LAYER
  5
79
330
2
100
AcDbSymbolTableRecord
100
AcDbLayerTableRecord
  2
BALON
 70
     0
 62
     5
  6
Continuous
370
    -3
390
F
  0
LAYER
  5
7A
330
2
100
AcDbSymbolTableRecord
100
AcDbLayerTableRecord
  2
VURGU
 70
     0
 62
     7
  6
Continuous
370
    -3
390
F
  0
LAYER
  5
7B
330
2
100
AcDbSymbolTableRecord
100
AcDbLayerTableRecord
  2
SILIK
 70
     0
 62
     7
  6
Continuous
370
    -3
390
F
  0
LAYER
  5
7C
330
2
100
AcDbSymbolTableRecord
100
AcDbLayerTableRecord
  2
MODEL
 70
     0
 62
     7
  6
Continuous
370
    -3
390
F
  0
LAYER
  5
7D
330
2
100
AcDbSymbolTableRecord
100
AcDbLayerTableRecord
  2
DETAYLANDıRMA
 70
     0
 62
   190
  6
Continuous
370
    -3
390
F
  0
LAYER
  5
7E
330
2
100
AcDbSymbolTableRecord
100
AcDbLayerTableRecord
  2
TOLERANS
 70
     0
 62
   230
  6
Continuous
370
    -3
390
F
  0
LAYER
  5
7F
330
2
100
AcDbSymbolTableRecord
100
AcDbLayerTableRecord
  2
MERKEZ_CIZGILERI
 70
     0
 62
    30
  6
Continuous
370
    -3
390
F
  0
LAYER
  5
80
330
2
100
AcDbSymbolTableRecord
100
AcDbLayerTableRecord
  2
KESIT-DETAY_CIZGILERI
 70
     0
 62
     7
  6
Continuous
370
    -3
390
F
  0
LAYER
  5
81
330
2
100
AcDbSymbolTableRecord
100
AcDbLayerTableRecord
  2
\U+041E\U+0421\U+0415\U+0412\U+042B\U+0415
 70
     0
 62
     7
  6
Continuous
370
    -3
390
F
  0
LAYER
  5
82
330
2
100
AcDbSymbolTableRecord
100
AcDbLayerTableRecord
  2
\U+0412\U+041E\U+0414\U+042F\U+041D\U+042B\U+0415_\U+0417\U+041D\U+0410\U+041A\U+0418
 70
     0
 62
    11
  6
Continuous
370
    -3
390
F
  0
ENDTAB
  0
TABLE
  2
STYLE
  5
3
330
0
100
AcDbSymbolTable
 70
     1
  0
STYLE
  5
11
330
3
100
AcDbSymbolTableRecord
100
AcDbTextStyleTableRecord
  2
Standard
 70
     0
 40
0.0
 41
1.0
 50
0.0
 71
     0
 42
3.5
  3
txt
  4

  0
ENDTAB
  0
TABLE
  2
VIEW
  5
6
330
0
100
AcDbSymbolTable
 70
     0
  0
ENDTAB
  0
TABLE
  2
UCS
  5
7
330
0
100
AcDbSymbolTable
 70
     0
  0
ENDTAB
  0
TABLE
  2
APPID
  5
9
330
0
100
AcDbSymbolTable
 70
     1
  0
APPID
  5
12
330
9
100
AcDbSymbolTableRecord
100
AcDbRegAppTableRecord
  2
ACAD
 70
     0
  0
ENDTAB
  0
TABLE
  2
DIMSTYLE
  5
A
330
0
100
AcDbSymbolTable
 70
     1
100
AcDbDimStyleTable
  0
DIMSTYLE
105
27
330
A
100
AcDbSymbolTableRecord
100
AcDbDimStyleTableRecord
  2
ISO-25
 70
     0
 41
2.5
 42
0.625
 43
3.75
 44
1.25
 73
     0
 74
     0
 77
     1
 78
     8
140
2.5
141
2.5
143
0.0393700787
147
0.625
171
     3
172
     1
178
     0
271
     2
272
     2
274
     3
278
    44
283
     0
284
     8
340
11
  0
ENDTAB
  0
TABLE
  2
BLOCK_RECORD
  5
1
330
0
100
AcDbSymbolTable
 70
     3
  0
BLOCK_RECORD
  5
1F
330
1
100
AcDbSymbolTableRecord
100
AcDbBlockTableRecord
  2
*Model_Space
340
22
  0
BLOCK_RECORD
  5
1B
330
1
100
AcDbSymbolTableRecord
100
AcDbBlockTableRecord
  2
*Paper_Space
340
1E
  0
BLOCK_RECORD
  5
23
330
1
100
AcDbSymbolTableRecord
100
AcDbBlockTableRecord
  2
*Paper_Space0
340
26
  0
BLOCK_RECORD
  5
88
330
1
100
AcDbSymbolTableRecord
100
AcDbBlockTableRecord
  2
SW_CENTERMARKSYMBOL_0
340
0
102
{BLKREFS
331
93
102
}
  0
BLOCK_RECORD
  5
BB
330
1
100
AcDbSymbolTableRecord
100
AcDbBlockTableRecord
  2
SW_CENTERMARKSYMBOL_1
340
0
102
{BLKREFS
331
C6
102
}
  0
ENDTAB
  0
ENDSEC
  0
SECTION
  2
BLOCKS
  0
BLOCK
  5
20
330
1F
100
AcDbEntity
  8
0
100
AcDbBlockBegin
  2
*Model_Space
 70
     0
 10
0.0
 20
0.0
 30
0.0
  3
*Model_Space
  1

  0
ENDBLK
  5
21
330
1F
100
AcDbEntity
  8
0
100
AcDbBlockEnd
  0
BLOCK
  5
1C
330
1B
100
AcDbEntity
 67
     1
  8
0
100
AcDbBlockBegin
  2
*Paper_Space
 70
     0
 10
0.0
 20
0.0
 30
0.0
  3
*Paper_Space
  1

  0
ENDBLK
  5
1D
330
1B
100
AcDbEntity
 67
     1
  8
0
100
AcDbBlockEnd
  0
BLOCK
  5
24
330
23
100
AcDbEntity
  8
0
100
AcDbBlockBegin
  2
*Paper_Space0
 70
     0
 10
0.0
 20
0.0
 30
0.0
  3
*Paper_Space0
  1

  0
ENDBLK
  5
25
330
23
100
AcDbEntity
  8
0
100
AcDbBlockEnd
  0
BLOCK
  5
89
330
88
100
AcDbEntity
  8
0
100
AcDbBlockBegin
  2
SW_CENTERMARKSYMBOL_0
 70
     0
 10
0.0
 20
0.0
 30
0.0
  3
SW_CENTERMARKSYMBOL_0
  1

  0
LINE
  5
8B
330
88
100
AcDbEntity
  8
FORMAT
 62
     0
100
AcDbLine
 10
0.0
 20
0.0
 30
0.0
 11
0.0
 21
2.5
 31
0.0
  0
LINE
  5
8C
330
88
100
AcDbEntity
  8
FORMAT
 62
     0
100
AcDbLine
 10
0.0
 20
0.0
 30
0.0
 11
-2.5
 21
0.0
 31
0.0
  0
LINE
  5
8D
330
88
100
AcDbEntity
  8
FORMAT
 62
     0
100
AcDbLine
 10
0.0
 20
0.0
 30
0.0
 11
0.0
 21
-2.5
 31
0.0
  0
LINE
  5
8E
330
88
100
AcDbEntity
  8
FORMAT
 62
     0
100
AcDbLine
 10
0.0
 20
0.0
 30
0.0
 11
2.5
 21
0.0
 31
0.0
  0
LINE
  5
8F
330
88
100
AcDbEntity
  8
FORMAT
 62
     0
100
AcDbLine
 10
0.0
 20
5.0
 30
0.0
 11
0.0
 21
142.5
 31
0.0
  0
LINE
  5
90
330
88
100
AcDbEntity
  8
FORMAT
 62
     0
100
AcDbLine
 10
-5.0
 20
0.0
 30
0.0
 11
-142.5
 21
0.0
 31
0.0
  0
LINE
  5
91
330
88
100
AcDbEntity
  8
FORMAT
 62
     0
100
AcDbLine
 10
0.0
 20
-5.0
 30
0.0
 11
0.0
 21
-142.5
 31
0.0
  0
LINE
  5
92
330
88
100
AcDbEntity
  8
FORMAT
 62
     0
100
AcDbLine
 10
5.0
 20
0.0
 30
0.0
 11
142.5
 21
0.0
 31
0.0
  0
ENDBLK
  5
8A
330
88
100
AcDbEntity
  8
0
100
AcDbBlockEnd
  0
BLOCK
  5
BC
330
BB
100
AcDbEntity
  8
0
100
AcDbBlockBegin
  2
SW_CENTERMARKSYMBOL_1
 70
     0
 10
0.0
 20
0.0
 30
0.0
  3
SW_CENTERMARKSYMBOL_1
  1

  0
LINE
  5
BE
330
BB
100
AcDbEntity
  8
FORMAT
 62
     0
100
AcDbLine
 10
0.0
 20
0.0
 30
0.0
 11
0.0
 21
2.5
 31
0.0
  0
LINE
  5
BF
330
BB
100
AcDbEntity
  8
FORMAT
 62
     0
100
AcDbLine
 10
0.0
 20
0.0
 30
0.0
 11
-2.5
 21
0.0
 31
0.0
  0
LINE
  5
C0
330
BB
100
AcDbEntity
  8
FORMAT
 62
     0
100
AcDbLine
 10
0.0
 20
0.0
 30
0.0
 11
0.0
 21
-2.5
 31
0.0
  0
LINE
  5
C1
330
BB
100
AcDbEntity
  8
FORMAT
 62
     0
100
AcDbLine
 10
0.0
 20
0.0
 30
0.0
 11
2.5
 21
0.0
 31
0.0
  0
LINE
  5
C2
330
BB
100
AcDbEntity
  8
FORMAT
 62
     0
100
AcDbLine
 10
0.0
 20
5.0
 30
0.0
 11
0.0
 21
142.5
 31
0.0
  0
LINE
  5
C3
330
BB
100
AcDbEntity
  8
FORMAT
 62
     0
100
AcDbLine
 10
-5.0
 20
0.0
 30
0.0
 11
-142.5
 21
0.0
 31
0.0
  0
LINE
  5
C4
330
BB
100
AcDbEntity
  8
FORMAT
 62
     0
100
AcDbLine
 10
0.0
 20
-5.0
 30
0.0
 11
0.0
 21
-142.5
 31
0.0
  0
LINE
  5
C5
330
BB
100
AcDbEntity
  8
FORMAT
 62
     0
100
AcDbLine
 10
5.0
 20
0.0
 30
0.0
 11
142.5
 21
0.0
 31
0.0
  0
ENDBLK
  5
BD
330
BB
100
AcDbEntity
  8
0
100
AcDbBlockEnd
  0
ENDSEC
  0
SECTION
  2
ENTITIES
  0
LINE
  5
83
330
1F
100
AcDbEntity
  8
0
  6
Continuous
 62
     7
370
    25
100
AcDbLine
 10
-3.5740573766
 20
-33.5517129356
 30
0.0
 11
336.4259426234
 21
-33.5517129356
 31
0.0
  0
LINE
  5
84
330
1F
100
AcDbEntity
  8
0
  6
Continuous
 62
     7
370
    25
100
AcDbLine
 10
336.4259426234
 20
246.4482870644
 30
0.0
 11
-3.5740573766
 21
246.4482870644
 31
0.0
  0
CIRCLE
  5
85
330
1F
100
AcDbEntity
  8
0
  6
Continuous
 62
     7
370
    25
100
AcDbCircle
 10
-3.5740573766
 20
106.4482870644
 30
0.0
 40
123.4
  0
CIRCLE
  5
86
330
1F
100
AcDbEntity
  8
0
  6
Continuous
 62
     7
370
    25
100
AcDbCircle
 10
-3.5740573766
 20
106.4482870644
 30
0.0
 40
140.0
  0
LINE
  5
87
330
1F
100
AcDbEntity
  8
0
  6
Continuous
 62
     7
370
    25
100
AcDbLine
 10
336.4259426234
 20
246.4482870644
 30
0.0
 11
336.4259426234
 21
-33.5517129356
 31
0.0
  0
INSERT
  5
93
330
1F
100
AcDbEntity
  8
FORMAT
100
AcDbBlockReference
  2
SW_CENTERMARKSYMBOL_0
 10
-3.5740573766
 20
106.4482870644
 30
0.0
  0
LINE
  5
94
330
1F
100
AcDbEntity
  8
0
  6
Continuous
 62
     7
370
    25
100
AcDbLine
 10
136.4259426234
 20
853.1694963983
 30
0.0
 11
136.4259426234
 21
1058.1694963983
 31
0.0
  0
LINE
  5
95
330
1F
100
AcDbEntity
  8
0
  6
Continuous
 62
     7
370
    25
100
AcDbLine
 10
136.4259426234
 20
368.1694963983
 30
0.0
 11
136.4259426234
 21
573.1694963983
 31
0.0
  0
LINE
  5
96
330
1F
100
AcDbEntity
  8
0
  6
Continuous
 62
     7
370
    25
100
AcDbLine
 10
-143.5740573766
 20
1058.1694963983
 30
0.0
 11
-143.5740573766
 21
368.1694963983
 31
0.0
  0
LINE
  5
97
330
1F
100
AcDbEntity
  8
0
  6
Continuous
 62
     7
370
    25
100
AcDbLine
 10
136.4259426234
 20
573.1694963983
 30
0.0
 11
336.4259426234
 21
573.1694963983
 31
0.0
  0
LINE
  5
98
330
1F
100
AcDbEntity
  8
0
  6
Continuous
 62
     7
370
    25
100
AcDbLine
 10
336.4259426234
 20
853.1694963983
 30
0.0
 11
136.4259426234
 21
853.1694963983
 31
0.0
  0
LINE
  5
99
330
1F
100
AcDbEntity
  8
0
  6
Continuous
 62
     7
370
    25
100
AcDbLine
 10
136.4259426234
 20
853.1694963983
 30
0.0
 11
-3.5740573766
 21
713.1694963983
 31
0.0
  0
LINE
  5
9A
330
1F
100
AcDbEntity
  8
0
  6
Continuous
 62
     7
370
    25
100
AcDbLine
 10
-3.5740573766
 20
713.1694963983
 30
0.0
 11
136.4259426234
 21
573.1694963983
 31
0.0
  0
LINE
  5
9B
330
1F
100
AcDbEntity
  8
0
  6
Continuous
 62
     7
370
    25
100
AcDbLine
 10
-143.5740573766
 20
1058.1694963983
 30
0.0
 11
136.4259426234
 21
1058.1694963983
 31
0.0
  0
LINE
  5
9C
330
1F
100
AcDbEntity
  8
0
  6
Continuous
 62
     7
370
    25
100
AcDbLine
 10
-143.5740573766
 20
368.1694963983
 30
0.0
 11
136.4259426234
 21
368.1694963983
 31
0.0
  0
LINE
  5
9D
330
1F
100
AcDbEntity
  8
0
  6
Continuous
 62
     7
370
    25
100
AcDbLine
 10
336.4259426234
 20
853.1694963983
 30
0.0
 11
336.4259426234
 21
573.1694963983
 31
0.0
  0
LINE
  5
9E
330
1F
100
AcDbEntity
  8
0
  6
Continuous
 62
     7
370
    25
100
AcDbLine
 10
848.4033368586
 20
-33.5517129356
 30
0.0
 11
1193.4033368586
 21
-33.5517129356
 31
0.0
  0
LINE
  5
9F
330
1F
100
AcDbEntity
  8
0
  6
Continuous
 62
     7
370
    25
100
AcDbLine
 10
503.4033368586
 20
-33.5517129356
 30
0.0
 11
848.4033368586
 21
-33.5517129356
 31
0.0
  0
LINE
  5
A0
330
1F
100
AcDbEntity
  8
0
  6
Continuous
 62
     7
370
    25
100
AcDbLine
 10
848.4033368586
 20
246.4482870644
 30
0.0
 11
503.4033368586
 21
246.4482870644
 31
0.0
  0
LINE
  5
A1
330
1F
100
AcDbEntity
  8
0
  6
Continuous
 62
     7
370
    25
100
AcDbLine
 10
1193.4033368586
 20
246.4482870644
 30
0.0
 11
848.4033368586
 21
246.4482870644
 31
0.0
  0
LINE
  5
A2
330
1F
100
AcDbEntity
  8
0
  6
Continuous
 62
     7
370
    25
100
AcDbLine
 10
1193.4033368586
 20
246.4482870644
 30
0.0
 11
1193.4033368586
 21
-33.5517129356
 31
0.0
  0
LINE
  5
A3
330
1F
100
AcDbEntity
  8
0
  6
Continuous
 62
     7
370
    25
100
AcDbLine
 10
503.4033368586
 20
246.4482870644
 30
0.0
 11
503.4033368586
 21
-33.5517129356
 31
0.0
  0
LINE
  5
A4
330
1F
100
AcDbEntity
  8
0
  6
Continuous
 62
     7
370
    25
100
AcDbLine
 10
763.2124282473
 20
-331.2591520404
 30
0.0
 11
589.2549000225
 21
-230.8356085714
 31
0.0
  0
LINE
  5
A5
330
1F
100
AcDbEntity
  8
0
  6
Continuous
 62
     7
370
    25
100
AcDbLine
 10
1077.1585790412
 20
-512.4964071502
 30
0.0
 11
1043.2351849586
 21
-492.9128485941
 31
0.0
  0
LINE
  5
A6
330
1F
100
AcDbEntity
  8
0
  6
Continuous
 62
     7
370
    25
100
AcDbLine
 10
449.2662774534
 20
-473.329290038
 30
0.0
 11
937.1699564722
 21
-754.9900886168
 31
0.0
  0
LINE
  5
A7
330
1F
100
AcDbEntity
  8
0
  6
Continuous
 62
     7
370
    25
100
AcDbLine
 10
903.2010508164
 20
-573.752833507
 30
0.0
 11
1073.6230451353
 21
-475.3703103175
 31
0.0
  0
LINE
  5
A8
330
1F
100
AcDbEntity
  8
0
  6
Continuous
 62
     7
370
    25
100
AcDbLine
 10
933.6344225662
 20
-232.876628851
 30
0.0
 11
763.2124282473
 21
-331.2591520404
 31
0.0
  0
LINE
  5
A9
330
1F
100
AcDbEntity
  8
0
  6
Continuous
 62
     7
370
    25
100
AcDbLine
 10
763.2124282473
 20
-331.2591520404
 30
0.0
 11
763.2124282473
 21
-607.2285622581
 31
0.0
  0
ELLIPSE
  5
AA
330
1F
100
AcDbEntity
  8
0
  6
Continuous
 62
     7
370
    25
100
AcDbEllipse
 10
763.2124282473
 20
-492.9128485941
 30
0.0
 11
197.9898987322333
 21
2.842170943040401E-13
 31
0.0
210
0.0
220
0.0
230
1.0
 40
0.5773815452
 41
4.712388980384697
 42
5.49770587972005
  0
LWPOLYLINE
  5
AB
330
1F
100
AcDbEntity
  8
0
  6
Continuous
 62
     7
370
    25
100
AcDbPolyline
 90
      126
 70
   128
 43
0.0
 10
618.2555381041
 20
-294.9338814771
 10
618.1305031872
 20
-289.2623475079
 10
617.7557142858
 20
-283.7495025678
 10
617.132118149
 20
-278.4092725817
 10
616.2612900349
 20
-273.255147434
 10
615.1454297308
 20
-268.300146892
 10
613.7873559967
 20
-263.5567877172
 10
612.1904994447
 20
-259.0370520466
 10
610.358893873
 20
-254.7523571246
 10
608.2971660764
 20
-250.7135264626
 10
606.0105241581
 20
-246.9307624972
 10
603.5047443741
 20
-243.4136208187
 10
600.7861565415
 20
-240.170986032
 10
597.8616280493
 20
-237.2110493142
 10
594.7385465101
 20
-234.5412877222
 10
591.424801099
 20
-232.1684453054
 10
587.9287626245
 20
-230.0985160699
 10
584.2592623832
 20
-228.3367288365
 10
580.4255698512
 20
-226.8875340326
 10
576.4373692685
 20
-225.7545924501
 10
572.3047351759
 20
-224.9407659978
 10
568.0381069658
 20
-224.4481104718
 10
563.6482625114
 20
-224.2778703629
 10
559.1462909407
 20
-224.4304757123
 10
554.5435646247
 20
-224.9055410256
 10
549.8517104494
 20
-225.7018662467
 10
545.0825804457
 20
-226.8174397889
 10
540.24822185
 20
-228.2494436166
 10
535.3608466715
 20
-229.9942603639
 10
530.4328008442
 20
-232.0474824723
 10
525.4765330394
 20
-234.4039233244
 10
520.5045632199
 20
-237.0576303463
 10
515.529451013
 20
-240.0019000436
 10
510.5637639837
 20
-243.2292949356
 10
505.6200458885
 20
-246.7316623427
 10
500.7107849884
 20
-250.5001549808
 10
495.8483825025
 20
-254.5252533105
 10
491.0451212814
 20
-258.7967895841
 10
486.3131347799
 20
-263.3039735302
 10
481.6643764065
 20
-268.035419611
 10
477.1105893283
 20
-272.9791757831
 10
472.6632768068
 20
-278.1227536894
 10
468.3336731393
 20
-283.4531602055
 10
464.1327152805
 20
-288.9569302621
 10
460.0710152144
 20
-294.6201608584
 10
456.158833148
 20
-300.4285461823
 10
452.4060515927
 20
-306.3674137484
 10
448.8221504004
 20
-312.4217614619
 10
445.4161828166
 20
-318.5762955149
 10
442.1967526109
 20
-324.8154690203
 10
439.1719923435
 20
-331.1235212844
 10
436.3495428213
 20
-337.4845176196
 10
433.7365337968
 20
-343.8823895972
 10
431.3395659575
 20
-350.3009756373
 10
429.1646942522
 20
-356.7240618345
 10
427.2174125956
 20
-363.1354229156
 10
425.5026399903
 20
-369.5188632261
 10
424.0247081005
 20
-375.8582576417
 10
422.7873503105
 20
-382.137592302
 10
421.7936922936
 20
-388.3410050627
 10
421.046244116
 20
-394.4528255648
 10
420.5468938967
 20
-400.4576148192
 10
420.2969030378
 20
-406.3402042071
 10
420.2969030378
 20
-412.0857337972
 10
420.5468938967
 20
-417.6796898831
 10
421.046244116
 20
-423.1079416462
 10
421.7936922936
 20
-428.3567768516
 10
422.7873503105
 20
-433.4129364858
 10
424.0247081005
 20
-438.263648251
 10
425.5026399903
 20
-442.8966588281
 10
427.2174125956
 20
-447.3002648304
 10
429.1646942522
 20
-451.4633423669
 10
431.3395659575
 20
-455.3753751424
 10
433.7365337968
 20
-459.0264810227
 10
436.3495428213
 20
-462.4074369975
 10
439.1719923435
 20
-465.5097024784
 10
442.1967526109
 20
-468.3254408737
 10
445.4161828166
 20
-470.8475393838
 10
448.8221504004
 20
-473.069626969
 10
452.4060515927
 20
-474.9860904432
 10
456.158833148
 20
-476.5920886533
 10
460.0710152144
 20
-477.8835647084
 10
464.1327152805
 20
-478.8572562281
 10
468.3336731393
 20
-479.5107035829
 10
472.6632768068
 20
-479.8422561082
 10
477.1105893283
 20
-479.8510762734
 10
481.6643764065
 20
-479.5371417982
 10
486.3131347799
 20
-478.9012457082
 10
491.0451212814
 20
-477.9449943321
 10
495.8483825025
 20
-476.670803244
 10
500.7107849884
 20
-475.081891161
 10
505.6200458885
 20
-473.182271813
 10
510.5637639837
 20
-470.9767438034
 10
515.529451013
 20
-468.4708784873
 10
520.5045632199
 20
-465.6710058979
 10
525.4765330394
 20
-462.5841987565
 10
530.4328008442
 20
-459.2182546057
 10
535.3608466715
 20
-455.5816761126
 10
540.24822185
 20
-451.6836495902
 10
545.0825804457
 20
-447.5340217916
 10
549.8517104494
 20
-443.1432750369
 10
554.5435646247
 20
-438.5225007334
 10
559.1462909407
 20
-433.683371358
 10
563.6482625114
 20
-428.6381109715
 10
568.0381069658
 20
-423.3994643396
 10
572.3047351759
 20
-417.9806647382
 10
576.4373692685
 20
-412.3954005255
 10
580.4255698512
 20
-406.6577805635
 10
584.2592623832
 20
-400.7822985783
 10
587.9287626245
 20
-394.7837965473
 10
591.424801099
 20
-388.6774272072
 10
594.7385465101
 20
-382.4786157769
 10
597.8616280493
 20
-376.203020992
 10
600.7861565415
 20
-369.8664955497
 10
603.5047443741
 20
-363.4850460632
 10
606.0105241581
 20
-357.0747926276
 10
608.2971660764
 20
-350.6519280996
 10
610.358893873
 20
-344.2326771922
 10
612.1904994447
 20
-337.8332554904
 10
613.7873559967
 20
-331.4698284889
 10
615.1454297308
 20
-325.1584707565
 10
616.2612900349
 20
-318.9151253306
 10
617.132118149
 20
-312.7555634436
 10
617.7557142858
 20
-306.6953446834
 10
618.1305031872
 20
-300.7497776885
 10
618.2555381041
 20
-294.9338814771
  0
LWPOLYLINE
  5
AC
330
1F
100
AcDbEntity
  8
0
  6
Continuous
 62
     7
370
    25
100
AcDbPolyline
 90
       17
 70
   128
 43
0.0
 10
1106.1592171228
 20
-576.5946800559
 10
1106.034182206
 20
-570.9231460867
 10
1105.6593933045
 20
-565.4103011467
 10
1105.0357971677
 20
-560.0700711606
 10
1104.1649690536
 20
-554.9159460128
 10
1103.0491087495
 20
-549.9609454708
 10
1101.6910350154
 20
-545.217586296
 10
1100.0941784634
 20
-540.6978506254
 10
1098.2625728918
 20
-536.4131557034
 10
1096.2008450951
 20
-532.3743250414
 10
1093.9142031768
 20
-528.5915610761
 10
1091.4084233928
 20
-525.0744193975
 10
1088.6898355603
 20
-521.8317846109
 10
1085.765307068
 20
-518.871847893
 10
1082.6422255288
 20
-516.202086301
 10
1079.3284801177
 20
-513.8292438843
 10
1077.1585790412
 20
-512.4964071502
  0
LWPOLYLINE
  5
AD
330
1F
100
AcDbEntity
  8
0
  6
Continuous
 62
     7
370
    25
100
AcDbPolyline
 90
       48
 70
   128
 43
0.0
 10
937.1699564722
 20
-754.9900886168
 10
940.3097306115
 20
-756.646889022
 10
944.0625121668
 20
-758.2528872321
 10
947.9746942332
 20
-759.5443632873
 10
952.0363942992
 20
-760.5180548069
 10
956.2373521581
 20
-761.1715021617
 10
960.5669558255
 20
-761.503054687
 10
965.0142683471
 20
-761.5118748523
 10
969.5680554252
 20
-761.197940377
 10
974.2168137986
 20
-760.562044287
 10
978.9488003001
 20
-759.605792911
 10
983.7520615212
 20
-758.3316018228
 10
988.6144640071
 20
-756.7426897399
 10
993.5237249072
 20
-754.8430703919
 10
998.4674430024
 20
-752.6375423822
 10
1003.4331300317
 20
-750.1316770661
 10
1008.4082422387
 20
-747.3318044767
 10
1013.3802120582
 20
-744.2449973353
 10
1018.3364798629
 20
-740.8790531845
 10
1023.2645256902
 20
-737.2424746915
 10
1028.1519008687
 20
-733.344448169
 10
1032.9862594644
 20
-729.1948203704
 10
1037.7553894681
 20
-724.8040736157
 10
1042.4472436434
 20
-720.1832993122
 10
1047.0499699594
 20
-715.3441699368
 10
1051.5519415301
 20
-710.2989095504
 10
1055.9417859846
 20
-705.0602629184
 10
1060.2084141946
 20
-699.641463317
 10
1064.3410482872
 20
-694.0561991043
 10
1068.3292488699
 20
-688.3185791424
 10
1072.162941402
 20
-682.4430971572
 10
1075.8324416433
 20
-676.4445951261
 10
1079.3284801178
 20
-670.338225786
 10
1082.6422255288
 20
-664.1394143557
 10
1085.765307068
 20
-657.8638195709
 10
1088.6898355603
 20
-651.5272941286
 10
1091.4084233928
 20
-645.145844642
 10
1093.9142031768
 20
-638.7355912065
 10
1096.2008450951
 20
-632.3127266784
 10
1098.2625728918
 20
-625.893475771
 10
1100.0941784634
 20
-619.4940540693
 10
1101.6910350154
 20
-613.1306270678
 10
1103.0491087495
 20
-606.8192693354
 10
1104.1649690536
 20
-600.5759239095
 10
1105.0357971677
 20
-594.4163620224
 10
1105.6593933045
 20
-588.3561432622
 10
1106.034182206
 20
-582.4105762673
 10
1106.1592171228
 20
-576.5946800559
  0
LWPOLYLINE
  5
AE
330
1F
100
AcDbEntity
  8
0
  6
Continuous
 62
     7
370
    25
100
AcDbPolyline
 90
      118
 70
   128
 43
0.0
 10
606.5175655364
 20
-301.7100688052
 10
606.3917733101
 20
-296.3741689162
 10
606.014759323
 20
-291.1988904207
 10
605.3876106038
 20
-286.1991549866
 10
604.5121353848
 20
-281.3893781453
 10
603.3908578875
 20
-276.7834277286
 10
602.0270110454
 20
-272.3945838839
 10
600.4245271819
 20
-268.2355007842
 10
598.5880266727
 20
-264.3181701426
 10
596.5228046244
 20
-260.6538866375
 10
594.2348156067
 20
-257.2532153469
 10
591.7306564842
 20
-254.1259612864
 10
589.0175473959
 20
-251.281141139
 10
586.1033109378
 20
-248.7269572577
 10
582.9963496078
 20
-246.4707740157
 10
579.7056215798
 20
-244.5190965735
 10
576.2406148747
 20
-242.8775521223
 10
572.6113200037
 20
-241.5508736597
 10
568.8282011635
 20
-240.5428863433
 10
564.902166065
 20
-239.8564964612
 10
560.8445344837
 20
-239.4936830534
 10
556.667005622
 20
-239.4554922047
 10
552.3816243769
 20
-239.7420340293
 10
548.0007466119
 20
-240.3524823528
 10
543.5370035318
 20
-241.2850770948
 10
539.0032652634
 20
-242.5371293432
 10
534.4126037477
 20
-244.1050291072
 10
529.7782550504
 20
-245.984255726
 10
525.1135811983
 20
-248.1693909027
 10
520.4320316538
 20
-250.6541343268
 10
515.7471045361
 20
-253.43132184
 10
511.0723077029
 20
-256.4929460917
 10
506.4211198036
 20
-259.8301796265
 10
501.8069514171
 20
-263.4334003364
 10
497.2431063852
 20
-267.2922192031
 10
492.7427434546
 20
-271.395510253
 10
488.3188383367
 20
-275.7314426358
 10
483.9841462951
 20
-280.2875147359
 10
479.7511653692
 20
-285.050590218
 10
475.6321003388
 20
-290.0069359026
 10
471.6388275345
 20
-295.1422613618
 10
467.7828605958
 20
-300.4417601232
 10
464.0753172734
 20
-305.8901523597
 10
460.5268873745
 20
-311.4717289462
 10
457.1478019412
 20
-317.1703967525
 10
453.9478037514
 20
-322.969725044
 10
450.9361192284
 20
-328.852992856
 10
448.1214318383
 20
-334.8032372045
 10
445.5118570534
 20
-340.8033019945
 10
443.1149189534
 20
-346.835887486
 10
440.9375285314
 20
-352.8836001735
 10
438.9859637676
 20
-358.9290029356
 10
437.2658515284
 20
-364.9546653112
 10
435.7821513427
 20
-370.9432137558
 10
434.5391411022
 20
-376.877381734
 10
433.5404047272
 20
-382.7400595033
 10
432.7888218333
 20
-388.514343446
 10
432.2865594284
 20
-394.1835848067
 10
432.0350656652
 20
-399.731437695
 10
432.0350656652
 20
-405.1419062147
 10
432.2865594284
 20
-410.3993905846
 10
432.7888218333
 20
-415.4887321162
 10
433.5404047272
 20
-420.3952569203
 10
434.5391411022
 20
-425.1048182158
 10
435.7821513427
 20
-429.6038371183
 10
437.2658515284
 20
-433.8793417917
 10
438.9859637676
 20
-437.9190048491
 10
440.9375285314
 20
-441.7111788962
 10
443.1149189534
 20
-445.2449301136
 10
445.5118570534
 20
-448.5100697817
 10
448.1214318383
 20
-451.4971836575
 10
450.9361192284
 20
-454.1976591186
 10
453.9478037514
 20
-456.603709995
 10
457.1478019412
 20
-458.7083990192
 10
460.5268873745
 20
-460.505657828
 10
464.0753172734
 20
-461.9903044589
 10
467.7828605958
 20
-463.1580582914
 10
471.6388275345
 20
-464.0055523888
 10
475.6321003388
 20
-464.5303432063
 10
479.7511653692
 20
-464.7309176361
 10
483.9841462951
 20
-464.6066973702
 10
488.3188383367
 20
-464.1580405678
 10
492.7427434546
 20
-463.3862408225
 10
497.2431063852
 20
-462.293523433
 10
501.8069514171
 20
-460.8830389861
 10
506.4211198036
 20
-459.1588542739
 10
511.0723077029
 20
-457.125940567
 10
515.7471045361
 20
-454.7901592821
 10
520.4320316538
 20
-452.1582450811
 10
525.1135811983
 20
-449.2377864542
 10
529.7782550504
 20
-446.0372038395
 10
534.4126037477
 20
-442.5657253452
 10
539.0032652634
 20
-438.8333601425
 10
543.5370035318
 20
-434.8508696066
 10
548.0007466119
 20
-430.6297362885
 10
552.3816243769
 20
-426.1821308083
 10
556.667005622
 20
-421.5208767641
 10
560.8445344837
 20
-416.6594137579
 10
564.902166065
 20
-411.611758646
 10
568.8282011635
 20
-406.3924651248
 10
572.6113200037
 20
-401.0165817687
 10
576.2406148747
 20
-395.499608641
 10
579.7056215798
 20
-389.8574526035
 10
582.9963496078
 20
-384.1063814525
 10
586.1033109378
 20
-378.2629770152
 10
589.0175473959
 20
-372.344087339
 10
591.7306564842
 20
-366.3667781152
 10
594.2348156067
 20
-360.3482834736
 10
596.5228046244
 20
-354.3059562924
 10
598.5880266727
 20
-348.2572181649
 10
600.4245271819
 20
-342.219509169
 10
602.0270110454
 20
-336.2102375827
 10
603.3908578875
 20
-330.2467296917
 10
604.5121353848
 20
-324.3461798331
 10
605.3876106038
 20
-318.5256008194
 10
606.014759323
 20
-312.8017748868
 10
606.3917733101
 20
-307.1912053073
 10
606.5175655364
 20
-301.7100688052
  0
LWPOLYLINE
  5
AF
330
1F
100
AcDbEntity
  8
0
  6
Continuous
 62
     7
370
    25
100
AcDbPolyline
 90
      126
 70
   128
 43
0.0
 10
1102.6236832169
 20
-411.2720374118
 10
1102.4986483
 20
-405.4561412005
 10
1102.1238593986
 20
-399.5105742056
 10
1101.5002632618
 20
-393.4503554453
 10
1100.6294351477
 20
-387.2907935583
 10
1099.5135748435
 20
-381.0474481324
 10
1098.1555011094
 20
-374.7360904
 10
1096.5586445575
 20
-368.3726633985
 10
1094.7270389858
 20
-361.9732416968
 10
1092.6653111892
 20
-355.5539907894
 10
1090.3786692709
 20
-349.1311262613
 10
1087.8728894869
 20
-342.7208728257
 10
1085.1543016543
 20
-336.3394233392
 10
1082.2297731621
 20
-330.0028978969
 10
1079.1066916229
 20
-323.7273031121
 10
1075.7929462118
 20
-317.5284916818
 10
1072.2969077373
 20
-311.4221223416
 10
1068.627407496
 20
-305.4236203106
 10
1064.793714964
 20
-299.5481383254
 10
1060.8055143813
 20
-293.8105183635
 10
1056.6728802887
 20
-288.2252541507
 10
1052.4062520786
 20
-282.8064545494
 10
1048.0164076242
 20
-277.5678079174
 10
1043.5144360535
 20
-272.522547531
 10
1038.9117097374
 20
-267.6834181556
 10
1034.2198555622
 20
-263.0626438521
 10
1029.4507255585
 20
-258.6718970974
 10
1024.6163669627
 20
-254.5222692988
 10
1019.7289917843
 20
-250.6242427763
 10
1014.8009459569
 20
-246.9876642832
 10
1009.8446781522
 20
-243.6217201325
 10
1004.8727083327
 20
-240.534912991
 10
999.8975961257
 20
-237.7350404017
 10
994.9319090965
 20
-235.2291750855
 10
989.9881910013
 20
-233.0236470759
 10
985.0789301012
 20
-231.1240277279
 10
980.2165276152
 20
-229.5351156449
 10
975.4132663942
 20
-228.2609245568
 10
970.6812798926
 20
-227.3046731807
 10
966.0325215193
 20
-226.6687770907
 10
961.4787344411
 20
-226.3548426155
 10
957.0314219196
 20
-226.3636627808
 10
952.7018182521
 20
-226.6952153061
 10
948.5008603933
 20
-227.3486626609
 10
944.4391603272
 20
-228.3223541805
 10
940.5269782608
 20
-229.6138302357
 10
936.7741967055
 20
-231.2198284458
 10
933.1902955132
 20
-233.13629192
 10
929.7843279294
 20
-235.3583795051
 10
926.5648977237
 20
-237.8804780152
 10
923.5401374563
 20
-240.6962164105
 10
920.7176879341
 20
-243.7984818915
 10
918.1046789095
 20
-247.1794378662
 10
915.7077110702
 20
-250.8305437465
 10
913.532839365
 20
-254.7425765221
 10
911.5855577084
 20
-258.9056540586
 10
909.8707851031
 20
-263.3092600608
 10
908.3928532133
 20
-267.942270638
 10
907.1554954233
 20
-272.7929824031
 10
906.1618374063
 20
-277.8491420374
 10
905.4143892287
 20
-283.0979772427
 10
904.9150390095
 20
-288.5262290059
 10
904.6650481505
 20
-294.1201850918
 10
904.6650481505
 20
-299.8657146819
 10
904.9150390095
 20
-305.7483040698
 10
905.4143892287
 20
-311.7530933242
 10
906.1618374063
 20
-317.8649138262
 10
907.1554954233
 20
-324.0683265869
 10
908.3928532133
 20
-330.3476612472
 10
909.8707851031
 20
-336.6870556629
 10
911.5855577084
 20
-343.0704959734
 10
913.532839365
 20
-349.4818570544
 10
915.7077110702
 20
-355.9049432516
 10
918.1046789095
 20
-362.3235292917
 10
920.7176879341
 20
-368.7214012693
 10
923.5401374563
 20
-375.0823976045
 10
926.5648977237
 20
-381.3904498686
 10
929.7843279294
 20
-387.629623374
 10
933.1902955132
 20
-393.7841574271
 10
936.7741967055
 20
-399.8385051405
 10
940.5269782608
 20
-405.7773727066
 10
944.4391603272
 20
-411.5857580306
 10
948.5008603933
 20
-417.2489886268
 10
952.7018182521
 20
-422.7527586834
 10
957.0314219196
 20
-428.0831651996
 10
961.4787344411
 20
-433.2267431058
 10
966.0325215193
 20
-438.1704992779
 10
970.6812798926
 20
-442.9019453587
 10
975.4132663942
 20
-447.4091293048
 10
980.2165276152
 20
-451.6806655784
 10
985.0789301012
 20
-455.7057639081
 10
989.9881910013
 20
-459.4742565463
 10
994.9319090965
 20
-462.9766239533
 10
999.8975961257
 20
-466.2040188453
 10
1004.8727083327
 20
-469.1482885427
 10
1009.8446781522
 20
-471.8019955645
 10
1014.8009459569
 20
-474.1584364167
 10
1019.7289917843
 20
-476.211658525
 10
1024.6163669627
 20
-477.9564752723
 10
1029.4507255585
 20
-479.3884791001
 10
1034.2198555622
 20
-480.5040526422
 10
1038.9117097374
 20
-481.3003778633
 10
1043.5144360535
 20
-481.7754431766
 10
1048.0164076242
 20
-481.928048526
 10
1052.4062520786
 20
-481.7578084171
 10
1056.6728802887
 20
-481.2651528912
 10
1060.8055143813
 20
-480.4513264388
 10
1064.793714964
 20
-479.3183848563
 10
1068.627407496
 20
-477.8691900524
 10
1072.2969077373
 20
-476.107402819
 10
1075.7929462118
 20
-474.0374735835
 10
1079.1066916229
 20
-471.6646311668
 10
1082.2297731621
 20
-468.9948695748
 10
1085.1543016543
 20
-466.0349328569
 10
1087.8728894869
 20
-462.7922980703
 10
1090.3786692709
 20
-459.2751563917
 10
1092.6653111892
 20
-455.4923924264
 10
1094.7270389858
 20
-451.4535617643
 10
1096.5586445575
 20
-447.1688668424
 10
1098.1555011094
 20
-442.6491311717
 10
1099.5135748435
 20
-437.9057719969
 10
1100.6294351477
 20
-432.950771455
 10
1101.5002632618
 20
-427.7966463072
 10
1102.1238593986
 20
-422.4564163211
 10
1102.4986483
 20
-416.943571381
 10
1102.6236832169
 20
-411.2720374118
  0
LWPOLYLINE
  5
B0
330
1F
100
AcDbEntity
  8
0
  6
Continuous
 62
     7
370
    25
100
AcDbPolyline
 90
      118
 70
   128
 43
0.0
 10
1090.8857106492
 20
-404.4958500837
 10
1090.7599184229
 20
-399.0147135817
 10
1090.3829044358
 20
-393.4041440021
 10
1089.7557557166
 20
-387.6803180695
 10
1088.8802804976
 20
-381.8597390559
 10
1087.7590030003
 20
-375.9591891972
 10
1086.3951561582
 20
-369.9956813062
 10
1084.7926722946
 20
-363.98640972
 10
1082.9561717855
 20
-357.9487007241
 10
1080.8909497372
 20
-351.8999625966
 10
1078.6029607195
 20
-345.8576354153
 10
1076.098801597
 20
-339.8391407738
 10
1073.3856925087
 20
-333.86183155
 10
1070.4714560505
 20
-327.9429418738
 10
1067.3644947206
 20
-322.0995374364
 10
1064.0737666926
 20
-316.3484662855
 10
1060.6087599875
 20
-310.706310248
 10
1056.9794651165
 20
-305.1893371203
 10
1053.1963462763
 20
-299.8134537642
 10
1049.2703111778
 20
-294.594160243
 10
1045.2126795965
 20
-289.5465051311
 10
1041.0351507347
 20
-284.6850421248
 10
1036.7497694897
 20
-280.0237880806
 10
1032.3688917247
 20
-275.5761826005
 10
1027.9051486446
 20
-271.3550492824
 10
1023.3714103762
 20
-267.3725587464
 10
1018.7807488605
 20
-263.6401935437
 10
1014.1464001631
 20
-260.1687150495
 10
1009.4817263111
 20
-256.9681324348
 10
1004.8001767665
 20
-254.0476738078
 10
1000.1152496489
 20
-251.4157596069
 10
995.4404528157
 20
-249.0799783219
 10
990.7892649164
 20
-247.0470646151
 10
986.1750965298
 20
-245.3228799028
 10
981.6112514979
 20
-243.912395456
 10
977.1108885674
 20
-242.8196780664
 10
972.6869834495
 20
-242.0478783212
 10
968.3522914079
 20
-241.5992215188
 10
964.119310482
 20
-241.4750012529
 10
960.0002454515
 20
-241.6755756827
 10
956.0069726473
 20
-242.2003665002
 10
952.1510057085
 20
-243.0478605976
 10
948.4434623862
 20
-244.21561443
 10
944.8950324873
 20
-245.7002610609
 10
941.515947054
 20
-247.4975198697
 10
938.3159488642
 20
-249.602208894
 10
935.3042643412
 20
-252.0082597704
 10
932.4895769511
 20
-254.7087352314
 10
929.8800021662
 20
-257.6958491073
 10
927.4830640662
 20
-260.9609887753
 10
925.3056736442
 20
-264.4947399927
 10
923.3541088804
 20
-268.2869140398
 10
921.6339966412
 20
-272.3265770973
 10
920.1502964555
 20
-276.6020817706
 10
918.907286215
 20
-281.1011006731
 10
917.90854984
 20
-285.8106619687
 10
917.1569669461
 20
-290.7171867728
 10
916.6547045412
 20
-295.8065283044
 10
916.403210778
 20
-301.0640126742
 10
916.403210778
 20
-306.474481194
 10
916.6547045412
 20
-312.0223340822
 10
917.1569669461
 20
-317.6915754429
 10
917.90854984
 20
-323.4658593856
 10
918.907286215
 20
-329.3285371549
 10
920.1502964555
 20
-335.2627051331
 10
921.6339966412
 20
-341.2512535777
 10
923.3541088804
 20
-347.2769159533
 10
925.3056736442
 20
-353.3223187154
 10
927.4830640662
 20
-359.3700314029
 10
929.8800021662
 20
-365.4026168945
 10
932.4895769511
 20
-371.4026816845
 10
935.3042643412
 20
-377.3529260329
 10
938.3159488642
 20
-383.2361938449
 10
941.515947054
 20
-389.0355221365
 10
944.8950324873
 20
-394.7341899427
 10
948.4434623862
 20
-400.3157665292
 10
952.1510057085
 20
-405.7641587658
 10
956.0069726473
 20
-411.0636575271
 10
960.0002454515
 20
-416.1989829864
 10
964.119310482
 20
-421.1553286709
 10
968.3522914079
 20
-425.9184041531
 10
972.6869834495
 20
-430.4744762532
 10
977.1108885674
 20
-434.8104086359
 10
981.6112514979
 20
-438.9136996858
 10
986.1750965298
 20
-442.7725185526
 10
990.7892649164
 20
-446.3757392624
 10
995.4404528157
 20
-449.7129727972
 10
1000.1152496489
 20
-452.7745970489
 10
1004.8001767665
 20
-455.5517845621
 10
1009.4817263111
 20
-458.0365279863
 10
1014.1464001631
 20
-460.221663163
 10
1018.7807488605
 20
-462.1008897817
 10
1023.3714103762
 20
-463.6687895457
 10
1027.9051486446
 20
-464.9208417941
 10
1032.3688917247
 20
-465.8534365361
 10
1036.7497694897
 20
-466.4638848597
 10
1041.0351507347
 20
-466.7504266842
 10
1045.2126795965
 20
-466.7122358355
 10
1049.2703111778
 20
-466.3494224277
 10
1053.1963462763
 20
-465.6630325457
 10
1056.9794651165
 20
-464.6550452292
 10
1060.6087599875
 20
-463.3283667667
 10
1064.0737666926
 20
-461.6868223155
 10
1067.3644947206
 20
-459.7351448732
 10
1070.4714560505
 20
-457.4789616313
 10
1073.3856925087
 20
-454.9247777499
 10
1076.098801597
 20
-452.0799576025
 10
1078.6029607195
 20
-448.952703542
 10
1080.8909497372
 20
-445.5520322514
 10
1082.9561717855
 20
-441.8877487464
 10
1084.7926722946
 20
-437.9704181048
 10
1086.3951561582
 20
-433.811335005
 10
1087.7590030003
 20
-429.4224911603
 10
1088.8802804976
 20
-424.8165407436
 10
1089.7557557166
 20
-420.0067639023
 10
1090.3829044358
 20
-415.0070284682
 10
1090.7599184229
 20
-409.8317499728
 10
1090.8857106492
 20
-404.4958500837
  0
LINE
  5
B1
330
1F
100
AcDbEntity
  8
0
  6
Continuous
 62
     7
370
    25
100
AcDbLine
 10
-676.1851214027
 20
246.4482870644
 30
0.0
 11
-1021.1851214027
 21
246.4482870644
 31
0.0
  0
LINE
  5
B2
330
1F
100
AcDbEntity
  8
0
  6
Continuous
 62
     7
370
    25
100
AcDbLine
 10
-331.1851214027
 20
246.4482870644
 30
0.0
 11
-676.1851214027
 21
246.4482870644
 31
0.0
  0
LINE
  5
B3
330
1F
100
AcDbEntity
  8
0
  6
Continuous
 62
     7
370
    25
100
AcDbLine
 10
-676.1851214027
 20
-33.5517129356
 30
0.0
 11
-331.1851214027
 21
-33.5517129356
 31
0.0
  0
LINE
  5
B4
330
1F
100
AcDbEntity
  8
0
  6
Continuous
 62
     7
370
    25
100
AcDbLine
 10
-1021.1851214027
 20
-33.5517129356
 30
0.0
 11
-676.1851214027
 21
-33.5517129356
 31
0.0
  0
CIRCLE
  5
B5
330
1F
100
AcDbEntity
  8
0
  6
Continuous
 62
     7
370
    25
100
AcDbCircle
 10
-676.1851214027
 20
106.4482870644
 30
0.0
 40
123.4000000000001
  0
CIRCLE
  5
B6
330
1F
100
AcDbEntity
  8
0
  6
Continuous
 62
     7
370
    25
100
AcDbCircle
 10
-676.1851214027
 20
106.4482870644
 30
0.0
 40
140.0
  0
LINE
  5
B7
330
1F
100
AcDbEntity
  8
0
  6
Continuous
 62
     7
370
    25
100
AcDbLine
 10
-1021.1851214027
 20
106.4482870644
 30
0.0
 11
-1021.1851214027
 21
246.4482870644
 31
0.0
  0
LINE
  5
B8
330
1F
100
AcDbEntity
  8
0
  6
Continuous
 62
     7
370
    25
100
AcDbLine
 10
-1021.1851214027
 20
-33.5517129356
 30
0.0
 11
-1021.1851214027
 21
106.4482870644
 31
0.0
  0
LINE
  5
B9
330
1F
100
AcDbEntity
  8
0
  6
Continuous
 62
     7
370
    25
100
AcDbLine
 10
-331.1851214027
 20
106.4482870644
 30
0.0
 11
-331.1851214027
 21
246.4482870644
 31
0.0
  0
LINE
  5
BA
330
1F
100
AcDbEntity
  8
0
  6
Continuous
 62
     7
370
    25
100
AcDbLine
 10
-331.1851214027
 20
-33.5517129356
 30
0.0
 11
-331.1851214027
 21
106.4482870644
 31
0.0
  0
INSERT
  5
C6
330
1F
100
AcDbEntity
  8
FORMAT
100
AcDbBlockReference
  2
SW_CENTERMARKSYMBOL_1
 10
-676.1851214027
 20
106.4482870644
 30
0.0
  0
LINE
  5
C7
330
1F
100
AcDbEntity
  8
0
  6
Continuous
 62
     7
370
    25
100
AcDbLine
 10
-143.5740573766
 20
-170.8419518706
 30
0.0
 11
-143.5740573766
 21
-860.8419518706
 31
0.0
  0
LINE
  5
C8
330
1F
100
AcDbEntity
  8
0
  6
Continuous
 62
     7
370
    25
100
AcDbLine
 10
136.4259426234
 20
-375.8419518706
 30
0.0
 11
136.4259426234
 21
-170.8419518706
 31
0.0
  0
LINE
  5
C9
330
1F
100
AcDbEntity
  8
0
  6
Continuous
 62
     7
370
    25
100
AcDbLine
 10
136.4259426234
 20
-860.8419518706
 30
0.0
 11
136.4259426234
 21
-655.8419518706
 31
0.0
  0
LINE
  5
CA
330
1F
100
AcDbEntity
  8
0
  6
Continuous
 62
     7
370
    25
100
AcDbLine
 10
136.4259426234
 20
-655.8419518706
 30
0.0
 11
336.4259426234
 21
-655.8419518706
 31
0.0
  0
LINE
  5
CB
330
1F
100
AcDbEntity
  8
0
  6
Continuous
 62
     7
370
    25
100
AcDbLine
 10
336.4259426234
 20
-375.8419518706
 30
0.0
 11
136.4259426234
 21
-375.8419518706
 31
0.0
  0
LINE
  5
CC
330
1F
100
AcDbEntity
  8
0
  6
Continuous
 62
     7
370
    25
100
AcDbLine
 10
-3.5740573766
 20
-515.8419518706
 30
0.0
 11
136.4259426234
 21
-655.8419518706
 31
0.0
  0
LINE
  5
CD
330
1F
100
AcDbEntity
  8
0
  6
Continuous
 62
     7
370
    25
100
AcDbLine
 10
136.4259426234
 20
-375.8419518706
 30
0.0
 11
-3.5740573766
 21
-515.8419518706
 31
0.0
  0
LINE
  5
CE
330
1F
100
AcDbEntity
  8
0
  6
Continuous
 62
     7
370
    25
100
AcDbLine
 10
136.4259426234
 20
-860.8419518706
 30
0.0
 11
-143.5740573766
 21
-860.8419518706
 31
0.0
  0
LINE
  5
CF
330
1F
100
AcDbEntity
  8
0
  6
Continuous
 62
     7
370
    25
100
AcDbLine
 10
136.4259426234
 20
-170.8419518706
 30
0.0
 11
-143.5740573766
 21
-170.8419518706
 31
0.0
  0
LINE
  5
D0
330
1F
100
AcDbEntity
  8
0
  6
Continuous
 62
     7
370
    25
100
AcDbLine
 10
336.4259426234
 20
-375.8419518706
 30
0.0
 11
336.4259426234
 21
-655.8419518706
 31
0.0
  0
ENDSEC
  0
SECTION
  2
OBJECTS
  0
DICTIONARY
  5
C
330
0
100
AcDbDictionary
281
     1
  3
ACAD_GROUP
350
D
  3
ACAD_LAYOUT
350
1A
  3
ACAD_MLINESTYLE
350
17
  3
ACAD_PLOTSETTINGS
350
19
  3
ACAD_PLOTSTYLENAME
350
E
  3
ACAD_SCALELIST
350
47
  3
DWGPROPS
350
D1
  0
DICTIONARY
  5
D
102
{ACAD_REACTORS
330
C
102
}
330
C
100
AcDbDictionary
281
     1
  0
DICTIONARY
  5
1A
102
{ACAD_REACTORS
330
C
102
}
330
C
100
AcDbDictionary
281
     1
  3
Layout1
350
1E
  3
Layout2
350
26
  3
Model
350
22
  0
DICTIONARY
  5
17
102
{ACAD_REACTORS
330
C
102
}
330
C
100
AcDbDictionary
281
     1
  3
Standard
350
18
  0
DICTIONARY
  5
19
102
{ACAD_REACTORS
330
C
102
}
330
C
100
AcDbDictionary
281
     1
  0
ACDBDICTIONARYWDFLT
  5
E
102
{ACAD_REACTORS
330
C
102
}
330
C
100
AcDbDictionary
281
     1
  3
Normal
350
F
100
AcDbDictionaryWithDefault
340
F
  0
DICTIONARY
  5
47
102
{ACAD_REACTORS
330
C
102
}
330
C
100
AcDbDictionary
281
     1
  3
A0
350
48
  3
A1
350
49
  3
A2
350
4A
  3
A3
350
4B
  3
A4
350
4C
  3
A5
350
4D
  3
A6
350
4E
  3
A7
350
4F
  3
A8
350
50
  3
A9
350
51
  3
B0
350
52
  3
B1
350
53
  3
B2
350
54
  3
B3
350
55
  3
B4
350
56
  3
B5
350
57
  3
B6
350
58
  3
B7
350
59
  3
B8
350
5A
  3
B9
350
5B
  3
C0
350
5C
  3
C1
350
5D
  3
C2
350
5E
  3
C3
350
5F
  3
C4
350
60
  3
C5
350
61
  3
C6
350
62
  3
C7
350
63
  3
C8
350
64
  3
C9
350
65
  3
D0
350
66
  3
D1
350
67
  3
D2
350
68
  0
XRECORD
  5
D1
102
{ACAD_REACTORS
330
C
102
}
330
C
100
AcDbXrecord
280
     1
  1
DWGPROPS COOKIE
  2

  3

  4

  6

  7

  8
b.kav
  9

300
=
301
=
302
=
303
=
304
=
305
=
306
=
307
=
308
=
309
=
 40
0.0
 41
2459935.575583576
 42
2459935.575583762
  1

 90
        0
  0
LAYOUT
  5
1E
102
{ACAD_REACTORS
330
1A
102
}
330
1A
100
AcDbPlotSettings
  1

  2
none_device
  4

  6

 40
0.0
 41
0.0
 42
0.0
 43
0.0
 44
0.0
 45
0.0
 46
0.0
 47
0.0
 48
0.0
 49
0.0
140
0.0
141
0.0
142
1.0
143
1.0
 70
   688
 72
     1
 73
     0
 74
     5
  7

 75
    16
147
1.0
148
0.0
149
0.0
100
AcDbLayout
  1
Layout1
 70
     1
 71
     1
 10
0.0
 20
0.0
 11
420.0
 21
297.0
 12
0.0
 22
0.0
 32
0.0
 14
1.0000000000E+20
 24
1.0000000000E+20
 34
1.0000000000E+20
 15
-1.0000000000E+20
 25
-1.0000000000E+20
 35
-1.0000000000E+20
146
0.0
 13
0.0
 23
0.0
 33
0.0
 16
1.0
 26
0.0
 36
0.0
 17
0.0
 27
1.0
 37
0.0
 76
     0
330
1B
  0
LAYOUT
  5
26
102
{ACAD_REACTORS
330
1A
102
}
330
1A
100
AcDbPlotSettings
  1

  2
none_device
  4

  6

 40
0.0
 41
0.0
 42
0.0
 43
0.0
 44
0.0
 45
0.0
 46
0.0
 47
0.0
 48
0.0
 49
0.0
140
0.0
141
0.0
142
1.0
143
1.0
 70
   688
 72
     1
 73
     0
 74
     5
  7

 75
    16
147
1.0
148
0.0
149
0.0
100
AcDbLayout
  1
Layout2
 70
     1
 71
     2
 10
0.0
 20
0.0
 11
0.0
 21
0.0
 12
0.0
 22
0.0
 32
0.0
 14
0.0
 24
0.0
 34
0.0
 15
0.0
 25
0.0
 35
0.0
146
0.0
 13
0.0
 23
0.0
 33
0.0
 16
1.0
 26
0.0
 36
0.0
 17
0.0
 27
1.0
 37
0.0
 76
     0
330
23
  0
LAYOUT
  5
22
102
{ACAD_REACTORS
330
1A
102
}
330
1A
100
AcDbPlotSettings
  1

  2
none_device
  4
Letter_(8.50_x_11.00_Inches)
  6

 40
6.35
 41
6.35
 42
6.35000508
 43
6.35000508
 44
215.9
 45
279.4
 46
0.0
 47
0.0
 48
0.0
 49
0.0
140
0.0
141
0.0
142
1.0
143
1.0
 70
  1712
 72
     1
 73
     0
 74
     0
  7

 75
     0
147
1.0
148
0.0
149
0.0
100
AcDbLayout
  1
Model
 70
     1
 71
     0
 10
0.0
 20
0.0
 11
279.4
 21
215.9
 12
0.0
 22
0.0
 32
0.0
 14
0.0
 24
0.0
 34
0.0
 15
279.4
 25
215.9
 35
0.0
146
0.0
 13
0.0
 23
0.0
 33
0.0
 16
1.0
 26
0.0
 36
0.0
 17
0.0
 27
1.0
 37
0.0
 76
     0
330
1F
331
29
  0
MLINESTYLE
  5
18
102
{ACAD_REACTORS
330
17
102
}
330
17
100
AcDbMlineStyle
  2
Standard
 70
     0
  3

 62
   256
 51
90.0
 52
90.0
 71
     2
 49
0.5
 62
   256
  6
BYLAYER
 49
-0.5
 62
   256
  6
BYLAYER
  0
ACDBPLACEHOLDER
  5
F
102
{ACAD_REACTORS
330
E
102
}
330
E
  0
SCALE
  5
48
102
{ACAD_REACTORS
330
47
102
}
330
47
100
AcDbScale
 70
     0
300
1:1
140
1.0
141
1.0
290
     1
  0
SCALE
  5
49
102
{ACAD_REACTORS
330
47
102
}
330
47
100
AcDbScale
 70
     0
300
1:2
140
1.0
141
2.0
290
     0
  0
SCALE
  5
4A
102
{ACAD_REACTORS
330
47
102
}
330
47
100
AcDbScale
 70
     0
300
1:4
140
1.0
141
4.0
290
     0
  0
SCALE
  5
4B
102
{ACAD_REACTORS
330
47
102
}
330
47
100
AcDbScale
 70
     0
300
1:5
140
1.0
141
5.0
290
     0
  0
SCALE
  5
4C
102
{ACAD_REACTORS
330
47
102
}
330
47
100
AcDbScale
 70
     0
300
1:8
140
1.0
141
8.0
290
     0
  0
SCALE
  5
4D
102
{ACAD_REACTORS
330
47
102
}
330
47
100
AcDbScale
 70
     0
300
1:10
140
1.0
141
10.0
290
     0
  0
SCALE
  5
4E
102
{ACAD_REACTORS
330
47
102
}
330
47
100
AcDbScale
 70
     0
300
1:16
140
1.0
141
16.0
290
     0
  0
SCALE
  5
4F
102
{ACAD_REACTORS
330
47
102
}
330
47
100
AcDbScale
 70
     0
300
1:20
140
1.0
141
20.0
290
     0
  0
SCALE
  5
50
102
{ACAD_REACTORS
330
47
102
}
330
47
100
AcDbScale
 70
     0
300
1:30
140
1.0
141
30.0
290
     0
  0
SCALE
  5
51
102
{ACAD_REACTORS
330
47
102
}
330
47
100
AcDbScale
 70
     0
300
1:40
140
1.0
141
40.0
290
     0
  0
SCALE
  5
52
102
{ACAD_REACTORS
330
47
102
}
330
47
100
AcDbScale
 70
     0
300
1:50
140
1.0
141
50.0
290
     0
  0
SCALE
  5
53
102
{ACAD_REACTORS
330
47
102
}
330
47
100
AcDbScale
 70
     0
300
1:100
140
1.0
141
100.0
290
     0
  0
SCALE
  5
54
102
{ACAD_REACTORS
330
47
102
}
330
47
100
AcDbScale
 70
     0
300
2:1
140
2.0
141
1.0
290
     0
  0
SCALE
  5
55
102
{ACAD_REACTORS
330
47
102
}
330
47
100
AcDbScale
 70
     0
300
4:1
140
4.0
141
1.0
290
     0
  0
SCALE
  5
56
102
{ACAD_REACTORS
330
47
102
}
330
47
100
AcDbScale
 70
     0
300
8:1
140
8.0
141
1.0
290
     0
  0
SCALE
  5
57
102
{ACAD_REACTORS
330
47
102
}
330
47
100
AcDbScale
 70
     0
300
10:1
140
10.0
141
1.0
290
     0
  0
SCALE
  5
58
102
{ACAD_REACTORS
330
47
102
}
330
47
100
AcDbScale
 70
     0
300
100:1
140
100.0
141
1.0
290
     0
  0
SCALE
  5
59
102
{ACAD_REACTORS
330
47
102
}
330
47
100
AcDbScale
 70
     0
300
1/128" = 1'-0"
140
0.0078125
141
12.0
290
     0
  0
SCALE
  5
5A
102
{ACAD_REACTORS
330
47
102
}
330
47
100
AcDbScale
 70
     0
300
1/64" = 1'-0"
140
0.015625
141
12.0
290
     0
  0
SCALE
  5
5B
102
{ACAD_REACTORS
330
47
102
}
330
47
100
AcDbScale
 70
     0
300
1/32" = 1'-0"
140
0.03125
141
12.0
290
     0
  0
SCALE
  5
5C
102
{ACAD_REACTORS
330
47
102
}
330
47
100
AcDbScale
 70
     0
300
1/16" = 1'-0"
140
0.0625
141
12.0
290
     0
  0
SCALE
  5
5D
102
{ACAD_REACTORS
330
47
102
}
330
47
100
AcDbScale
 70
     0
300
3/32" = 1'-0"
140
0.09375
141
12.0
290
     0
  0
SCALE
  5
5E
102
{ACAD_REACTORS
330
47
102
}
330
47
100
AcDbScale
 70
     0
300
1/8" = 1'-0"
140
0.125
141
12.0
290
     0
  0
SCALE
  5
5F
102
{ACAD_REACTORS
330
47
102
}
330
47
100
AcDbScale
 70
     0
300
3/16" = 1'-0"
140
0.1875
141
12.0
290
     0
  0
SCALE
  5
60
102
{ACAD_REACTORS
330
47
102
}
330
47
100
AcDbScale
 70
     0
300
1/4" = 1'-0"
140
0.25
141
12.0
290
     0
  0
SCALE
  5
61
102
{ACAD_REACTORS
330
47
102
}
330
47
100
AcDbScale
 70
     0
300
3/8" = 1'-0"
140
0.375
141
12.0
290
     0
  0
SCALE
  5
62
102
{ACAD_REACTORS
330
47
102
}
330
47
100
AcDbScale
 70
     0
300
1/2" = 1'-0"
140
0.5
141
12.0
290
     0
  0
SCALE
  5
63
102
{ACAD_REACTORS
330
47
102
}
330
47
100
AcDbScale
 70
     0
300
3/4" = 1'-0"
140
0.75
141
12.0
290
     0
  0
SCALE
  5
64
102
{ACAD_REACTORS
330
47
102
}
330
47
100
AcDbScale
 70
     0
300
1" = 1'-0"
140
1.0
141
12.0
290
     0
  0
SCALE
  5
65
102
{ACAD_REACTORS
330
47
102
}
330
47
100
AcDbScale
 70
     0
300
1-1/2" = 1'-0"
140
1.5
141
12.0
290
     0
  0
SCALE
  5
66
102
{ACAD_REACTORS
330
47
102
}
330
47
100
AcDbScale
 70
     0
300
3" = 1'-0"
140
3.0
141
12.0
290
     0
  0
SCALE
  5
67
102
{ACAD_REACTORS
330
47
102
}
330
47
100
AcDbScale
 70
     0
300
6" = 1'-0"
140
6.0
141
12.0
290
     0
  0
SCALE
  5
68
102
{ACAD_REACTORS
330
47
102
}
330
47
100
AcDbScale
 70
     0
300
1'-0" = 1'-0"
140
12.0
141
12.0
290
     0
  0
ENDSEC
  0
EOF
